www.be-cool.own0.com

المواضيع الأخيرة

»  تحديثات بروكسي 6/9/2012 يوتيوب فيس بوك YOUTUBE FACEBOOK الدخول للمواقع المحجوبة
الأربعاء سبتمبر 05, 2012 2:26 pm من طرف m@mdou7

» اخر اصدار من برنامج كسر البروكسي " ultrasurf.1202 "على الميديافير رابط مباشر
الأربعاء سبتمبر 05, 2012 2:12 pm من طرف m@mdou7

» تاب أغنية مسلسل نور ...
الأربعاء يونيو 27, 2012 12:26 pm من طرف Abu3abd2011

» تابات عربي جيتار برو Arabic guitar pro tabs
الجمعة يونيو 22, 2012 10:35 am من طرف laith

» تابات أغاني فيروز firoz tabs
الأربعاء مايو 04, 2011 4:24 am من طرف 1jojo1

»  تحديثات بروكسي 2/9/2010 يوتيوب فيس بوك YOUTUBE FACEBOOK الدخول للمواقع المحجوبة
الخميس سبتمبر 02, 2010 4:54 am من طرف So0oMa

» برنامج جيتار برو (guitar pro) كامل مع الكراك و التحديث (تم تعديل الروابط)
الأحد يوليو 11, 2010 5:22 am من طرف انا موري

»  تحديثات بروكسي 2/7/2010 يوتيوب فيس بوك YOUTUBE FACEBOOK الدخول للمواقع المحجوبة
الجمعة يوليو 02, 2010 12:30 am من طرف So0oMa

» تحديثات بروكسي 7/6/2010 يوتيوب فيس بوك YOUTUBE FACEBOOK الدخول للمواقع المحجوبة
الثلاثاء يونيو 08, 2010 1:47 am من طرف So0oMa

massenger

google


    تعلم قراءة التاب

    شاطر

    m@mdou7

    عدد المساهمات : 46
    تاريخ التسجيل : 13/11/2009
    العمر : 24

    تعلم قراءة التاب

    مُساهمة  m@mdou7 في الإثنين فبراير 22, 2010 8:56 am

    اأعضائنا الكرام

    كيفكم ان شاء الله بخير
    فبحكم معرفتي بقراءة التاب البسيطة حبيت اشرح للي ما يعرف يقرا التاب كيف يقراه

    / اولاً : لازم تعرف اسماء الاوتار بالترتيب عشان تعرف ترتيب الاوتار بالتاب مثلاً
    ----------------------------------------E 1
    ----------------------------------------B 2
    ----------------------------------------G 3
    ----------------------------------------D 4
    ----------------------------------------A 5
    ----------------------------------------E 6
    mi , ci , sol , ri , la , mi

    ثانيا ً : بيجيك شكل التاب نفس ما هو موضّح بس الاغلب ما في حروف اللي هي اسماء الاوتار في كذا شيء بديهي انه الوتر الغليظ هو آخر واحد من تحت . (يعني أول وتر في التاب هو اخر وتر بالجيتار من عندك)

    ثالثا ً : هذا هو التاب
    --------------------------------------0---1--3--1--0-
    ----------------------1--0--1--3--0-----------------
    -----------2--1--2-----------------------------------
    ------------------------------------------------------
    ------------------------------------------------------
    ------------------------------------------------------
    كل خط يمثل وتر متل ما قلنا بالبداية والارقام هذه اللي فيه هي الخانات والصفر يعني ينعزف فاضي بدون ان تضغط على خانة
    يعني يصير الوتر الاول فوق / وتر فاضي , الخانة الاولى , الخانة الثالثة , الخانة الاولى , الوتر فاضي ؛؛ اتوقع فهمتوا ^_^
    التاب ينعزف من اليسار لليمين بترتيب الارقام يعني ما تجي ارقام تحت بعض الا انها وحدة من الثنتين يا انها كورد زي كذا

    -------------------------------0-- الوتر فاضي
    -------------------------------0-- الوتر فاضي
    -------------------------------1-- الخانة الاولى الوتر الثالث
    -------------------------------2-- الخانة الثانية الوتر الرابع
    -------------------------------2-- الخانة الثانية الوتر الخامس
    -------------------------------0-- الوتر فاضي

    هذا كورد ينعزف بالرتم اللي يعجبك او برتم الاغنية اللي تعزفها

    هذا بالنسبة للكورد , والاحتمال الثاني هو انه تعزف الاوتار مع بعض مثلا متل

    -----------------5----------
    ---------------------------
    ---------------------------
    ---------------------------
    ---------------------------
    ----------------0-----------


    هذا تعزف الوتر السادس فاضي و الوتر الاول ( اللي هو اللي تحت ) الخانة الخامسة مثل ما هو موجود بالرومانزا مع بعض

    وتمشي زي كذا مع التاب من اليسااااااااار الى ما يخلص وتذكر ان كل رقم يعبر عن خانة وكل وخط يعبر عن وتر وكل رقم 0 يعبر عن عزف الوتر فاضي بدووون ضغط

    طبعا ً في اشياء كثيييير بالتاب ما اعرفها للحين وهي الازمان وكذا اتمنى من اللي يعرف يفيدنا

      الوقت/التاريخ الآن هو الجمعة ديسمبر 09, 2016 8:22 am